ISO-10303-21;
HEADER;
FILE_DESCRIPTION (( 'STEP AP203' ),
    '1' );
FILE_NAME ('Q-OZHWP-R2-10-894-M.STEP',
    '2020-12-22T09:12:45',
    ( '' ),
    ( '' ),
    'SwSTEP 2.0',
    'SolidWorks 2020',
    '' );
FILE_SCHEMA (( 'CONFIG_CONTROL_DESIGN' ));
ENDSEC;

DATA;
#1 = PERSON_AND_ORGANIZATION ( #34, #233 ) ;
#2 = APPROVAL_PERSON_ORGANIZATION ( #157, #249, #316 ) ;
#3 = FACE_OUTER_BOUND ( 'NONE', #6, .T. ) ;
#4 = EDGE_LOOP ( 'NONE', ( #283, #66 ) ) ;
#5 = DATE_AND_TIME ( #230, #263 ) ;
#6 = EDGE_LOOP ( 'NONE', ( #178, #42, #144, #328 ) ) ;
#7 = APPROVAL_DATE_TIME ( #159, #150 ) ;
#8 = FACE_OUTER_BOUND ( 'NONE', #4, .T. ) ;
#9 = DATE_AND_TIME ( #26, #229 ) ;
#10 = PRODUCT ( 'Q-OZHWP-R2-10-894-M', 'Q-OZHWP-R2-10-894-M', '', ( #264 ) ) ;
#11 = DIRECTION ( 'NONE',  ( -1.000000000000000000, -0.000000000000000000, -0.000000000000000000 ) ) ;
#12 = CARTESIAN_POINT ( 'NONE',  ( -1.614212418857619014, 0.000000000000000000, 12.69999999999999929 ) ) ;
#13 = CARTESIAN_POINT ( 'NONE',  ( 1.250000000000000444, 6.123233995736766282E-16, -5.000000000000000000 ) ) ;
#14 = DIRECTION ( 'NONE',  ( 0.000000000000000000, 0.000000000000000000, 1.000000000000000000 ) ) ;
#15 = CARTESIAN_POINT ( 'NONE',  ( -3.000000000000000000, 0.000000000000000000, 12.69999999999999929 ) ) ;
#16 = ORIENTED_EDGE ( 'NONE', *, *, #32, .F. ) ;
#17 = ORIENTED_EDGE ( 'NONE', *, *, #240, .T. ) ;
#18 = CARTESIAN_POINT ( 'NONE',  ( 0.000000000000000000, 0.000000000000000000, 0.000000000000000000 ) ) ;
#19 = CIRCLE ( 'NONE', #262, 5.000000000000000888 ) ;
#20 =( NAMED_UNIT ( * ) PLANE_ANGLE_UNIT ( ) SI_UNIT ( $, .RADIAN. ) );
#21 = ORIENTED_EDGE ( 'NONE', *, *, #312, .T. ) ;
#22 = EDGE_CURVE ( 'NONE', #286, #24, #86, .T. ) ;
#23 = PLANE ( 'NONE',  #273 ) ;
#24 = VERTEX_POINT ( 'NONE', #81 ) ;
#25 = ADVANCED_FACE ( 'NONE', ( #8 ), #232, .F. ) ;
#26 = CALENDAR_DATE ( 2020, 22, 12 ) ;
#27 = AXIS2_PLACEMENT_3D ( 'NONE', #269, #323, #318 ) ;
#28 = EDGE_LOOP ( 'NONE', ( #261, #197 ) ) ;
#29 = ADVANCED_FACE ( 'NONE', ( #215, #162 ), #184, .F. ) ;
#30 = PERSON_AND_ORGANIZATION ( #34, #233 ) ;
#31 = EDGE_LOOP ( 'NONE', ( #207, #224, #220, #132 ) ) ;
#32 = EDGE_CURVE ( 'NONE', #96, #281, #320, .T. ) ;
#33 = DIRECTION ( 'NONE',  ( 0.000000000000000000, 0.000000000000000000, -1.000000000000000000 ) ) ;
#34 = PERSON ( 'UNSPECIFIED', 'UNSPECIFIED', 'UNSPECIFIED', ('UNSPECIFIED'), ('UNSPECIFIED'), ('UNSPECIFIED') ) ;
#35 = DIRECTION ( 'NONE',  ( -1.000000000000000000, -0.000000000000000000, -0.000000000000000000 ) ) ;
#36 = LINE ( 'NONE', #12, #334 ) ;
#37 = DIRECTION ( 'NONE',  ( 0.000000000000000000, 0.000000000000000000, 1.000000000000000000 ) ) ;
#38 = DIRECTION ( 'NONE',  ( 1.000000000000000000, 0.000000000000000000, 0.000000000000000000 ) ) ;
#39 = CIRCLE ( 'NONE', #187, 12.69999999999999929 ) ;
#40 = CYLINDRICAL_SURFACE ( 'NONE', #142, 5.000000000000000888 ) ;
#41 = CARTESIAN_POINT ( 'NONE',  ( -1.614212418857619014, 0.000000000000000000, 0.000000000000000000 ) ) ;
#42 = ORIENTED_EDGE ( 'NONE', *, *, #208, .T. ) ;
#43 = EDGE_CURVE ( 'NONE', #180, #204, #82, .T. ) ;
#44 = DIRECTION ( 'NONE',  ( 1.000000000000000000, 0.000000000000000000, 0.000000000000000000 ) ) ;
#45 = CC_DESIGN_APPROVAL ( #301, ( #327 ) ) ;
#46 = ADVANCED_FACE ( 'NONE', ( #61 ), #213, .T. ) ;
#47 = DIRECTION ( 'NONE',  ( 0.000000000000000000, 0.000000000000000000, 1.000000000000000000 ) ) ;
#48 = ORIENTED_EDGE ( 'NONE', *, *, #54, .F. ) ;
#49 = AXIS2_PLACEMENT_3D ( 'NONE', #18, #200, #317 ) ;
#50 = DIRECTION ( 'NONE',  ( -1.000000000000000000, -0.000000000000000000, -0.000000000000000000 ) ) ;
#51 = EDGE_LOOP ( 'NONE', ( #168, #104, #100, #228 ) ) ;
#52 = PERSON_AND_ORGANIZATION ( #34, #233 ) ;
#53 = EDGE_CURVE ( 'NONE', #96, #58, #114, .T. ) ;
#54 = EDGE_CURVE ( 'NONE', #135, #155, #299, .T. ) ;
#55 = ORIENTED_EDGE ( 'NONE', *, *, #275, .F. ) ;
#56 = CALENDAR_DATE ( 2020, 22, 12 ) ;
#57 = AXIS2_PLACEMENT_3D ( 'NONE', #91, #38, #190 ) ;
#58 = VERTEX_POINT ( 'NONE', #112 ) ;
#59 = DIRECTION ( 'NONE',  ( 0.000000000000000000, 0.000000000000000000, 1.000000000000000000 ) ) ;
#60 = CYLINDRICAL_SURFACE ( 'NONE', #99, 5.000000000000000888 ) ;
#61 = FACE_OUTER_BOUND ( 'NONE', #51, .T. ) ;
#62 = DIRECTION ( 'NONE',  ( 0.000000000000000000, 0.000000000000000000, 1.000000000000000000 ) ) ;
#63 = CARTESIAN_POINT ( 'NONE',  ( -3.000000000000000000, 0.000000000000000000, 0.000000000000000000 ) ) ;
#64 = CARTESIAN_POINT ( 'NONE',  ( -1.250000000000000222, 0.000000000000000000, 0.000000000000000000 ) ) ;
#65 = ADVANCED_FACE ( 'NONE', ( #291 ), #60, .F. ) ;
#66 = ORIENTED_EDGE ( 'NONE', *, *, #218, .F. ) ;
#67 = CARTESIAN_POINT ( 'NONE',  ( -1.614212418857619014, 0.000000000000000000, 5.000000000000000888 ) ) ;
#68 = CARTESIAN_POINT ( 'NONE',  ( -1.614212418857619014, 6.123233995736767268E-16, -5.000000000000000888 ) ) ;
#69 = VECTOR ( 'NONE', #297, 1000.000000000000000 ) ;
#70 = FACE_OUTER_BOUND ( 'NONE', #310, .T. ) ;
#71 = EDGE_LOOP ( 'NONE', ( #16, #243, #331, #17 ) ) ;
#72 = COORDINATED_UNIVERSAL_TIME_OFFSET ( 8, 0, .AHEAD. ) ;
#73 = DIRECTION ( 'NONE',  ( 0.000000000000000000, 0.000000000000000000, 1.000000000000000000 ) ) ;
#74 = EDGE_CURVE ( 'NONE', #24, #286, #138, .T. ) ;
#75 = APPROVAL_ROLE ( '' ) ;
#76 = VECTOR ( 'NONE', #188, 1000.000000000000000 ) ;
#77 = ADVANCED_FACE ( 'NONE', ( #139 ), #212, .F. ) ;
#78 = DATE_AND_TIME ( #102, #177 ) ;
#79 = CARTESIAN_POINT ( 'NONE',  ( -1.614212418857619014, 0.000000000000000000, 0.000000000000000000 ) ) ;
#80 = EDGE_CURVE ( 'NONE', #135, #180, #36, .T. ) ;
#81 = CARTESIAN_POINT ( 'NONE',  ( 3.000000000000000000, 0.000000000000000000, 5.000000000000001776 ) ) ;
#82 = CIRCLE ( 'NONE', #166, 12.69999999999999929 ) ;
#83 = MANIFOLD_SOLID_BREP ( 'Ðý×', #193 ) ;
#84 = CC_DESIGN_APPROVAL ( #249, ( #292 ) ) ;
#85 = CARTESIAN_POINT ( 'NONE',  ( -1.614212418857619014, 0.000000000000000000, 0.000000000000000000 ) ) ;
#86 = CIRCLE ( 'NONE', #119, 5.000000000000001776 ) ;
#87 = CYLINDRICAL_SURFACE ( 'NONE', #93, 5.000000000000000888 ) ;
#88 = AXIS2_PLACEMENT_3D ( 'NONE', #191, #120, #89 ) ;
#89 = DIRECTION ( 'NONE',  ( 0.000000000000000000, 0.000000000000000000, 1.000000000000000000 ) ) ;
#90 = LINE ( 'NONE', #68, #92 ) ;
#91 = CARTESIAN_POINT ( 'NONE',  ( -3.000000000000000000, 5.000000000000000000, 0.000000000000000000 ) ) ;
#92 = VECTOR ( 'NONE', #170, 1000.000000000000000 ) ;
#93 = AXIS2_PLACEMENT_3D ( 'NONE', #302, #143, #165 ) ;
#94 = UNCERTAINTY_MEASURE_WITH_UNIT (LENGTH_MEASURE( 1.000000000000000082E-05 ), #154, 'distance_accuracy_value', 'NONE');
#95 = DIRECTION ( 'NONE',  ( -1.000000000000000000, -0.000000000000000000, -0.000000000000000000 ) ) ;
#96 = VERTEX_POINT ( 'NONE', #214 ) ;
#97 = DIRECTION ( 'NONE',  ( 0.000000000000000000, 0.000000000000000000, 1.000000000000000000 ) ) ;
#98 = ORIENTED_EDGE ( 'NONE', *, *, #255, .T. ) ;
#99 = AXIS2_PLACEMENT_3D ( 'NONE', #164, #271, #270 ) ;
#100 = ORIENTED_EDGE ( 'NONE', *, *, #80, .T. ) ;
#101 = AXIS2_PLACEMENT_3D ( 'NONE', #179, #227, #97 ) ;
#102 = CALENDAR_DATE ( 2020, 22, 12 ) ;
#103 = DIRECTION ( 'NONE',  ( -1.000000000000000000, -0.000000000000000000, -0.000000000000000000 ) ) ;
#104 = ORIENTED_EDGE ( 'NONE', *, *, #146, .T. ) ;
#105 = DATE_TIME_ROLE ( 'classification_date' ) ;
#106 = CARTESIAN_POINT ( 'NONE',  ( -1.614212418857619014, 0.000000000000000000, 5.000000000000000888 ) ) ;
#107 = ADVANCED_FACE ( 'NONE', ( #325 ), #87, .F. ) ;
#108 = SHAPE_DEFINITION_REPRESENTATION ( #234, #174 ) ;
#109 = PRODUCT_RELATED_PRODUCT_CATEGORY ( 'detail', '', ( #10 ) ) ;
#110 = SECURITY_CLASSIFICATION_LEVEL ( 'unclassified' ) ;
#111 = DIRECTION ( 'NONE',  ( 0.000000000000000000, 0.000000000000000000, 1.000000000000000000 ) ) ;
#112 = CARTESIAN_POINT ( 'NONE',  ( -1.250000000000000222, 0.000000000000000000, 5.000000000000000888 ) ) ;
#113 = DIRECTION ( 'NONE',  ( -1.000000000000000000, -0.000000000000000000, -0.000000000000000000 ) ) ;
#114 = CIRCLE ( 'NONE', #124, 5.000000000000000888 ) ;
#115 = CIRCLE ( 'NONE', #88, 12.69999999999999929 ) ;
#116 = CARTESIAN_POINT ( 'NONE',  ( 1.250000000000000222, 5.000000000000000000, 0.000000000000000000 ) ) ;
#117 = CARTESIAN_POINT ( 'NONE',  ( -1.614212418857619014, 1.555301434917138433E-15, -12.69999999999999929 ) ) ;
#118 = LOCAL_TIME ( 17, 12, 45.00000000000000000, #284 ) ;
#119 = AXIS2_PLACEMENT_3D ( 'NONE', #152, #313, #73 ) ;
#120 = DIRECTION ( 'NONE',  ( -1.000000000000000000, -0.000000000000000000, -0.000000000000000000 ) ) ;
#121 = DIRECTION ( 'NONE',  ( -1.000000000000000000, -0.000000000000000000, -0.000000000000000000 ) ) ;
#122 = EDGE_CURVE ( 'NONE', #58, #315, #274, .T. ) ;
#123 = FACE_OUTER_BOUND ( 'NONE', #280, .T. ) ;
#124 = AXIS2_PLACEMENT_3D ( 'NONE', #209, #322, #33 ) ;
#125 = CARTESIAN_POINT ( 'NONE',  ( -3.000000000000000000, 6.123233995736766282E-16, -5.000000000000000000 ) ) ;
#126 = CIRCLE ( 'NONE', #222, 5.000000000000000000 ) ;
#127 = ORIENTED_EDGE ( 'NONE', *, *, #158, .T. ) ;
#128 = CALENDAR_DATE ( 2020, 22, 12 ) ;
#129 = DIRECTION ( 'NONE',  ( 0.000000000000000000, 0.000000000000000000, 1.000000000000000000 ) ) ;
#130 = VERTEX_POINT ( 'NONE', #13 ) ;
#131 = PERSON_AND_ORGANIZATION_ROLE ( 'design_owner' ) ;
#132 = ORIENTED_EDGE ( 'NONE', *, *, #267, .T. ) ;
#133 = COORDINATED_UNIVERSAL_TIME_OFFSET ( 8, 0, .AHEAD. ) ;
#134 = CARTESIAN_POINT ( 'NONE',  ( -3.000000000000000000, 0.000000000000000000, 0.000000000000000000 ) ) ;
#135 = VERTEX_POINT ( 'NONE', #242 ) ;
#136 = CARTESIAN_POINT ( 'NONE',  ( 3.000000000000000000, 0.000000000000000000, 0.000000000000000000 ) ) ;
#137 = APPLICATION_PROTOCOL_DEFINITION ( 'international standard', 'config_control_design', 1994, #216 ) ;
#138 = CIRCLE ( 'NONE', #237, 5.000000000000001776 ) ;
#139 = FACE_OUTER_BOUND ( 'NONE', #31, .T. ) ;
#140 = DIRECTION ( 'NONE',  ( -1.000000000000000000, -0.000000000000000000, -0.000000000000000000 ) ) ;
#141 = DIRECTION ( 'NONE',  ( -1.000000000000000000, 0.000000000000000000, -0.000000000000000000 ) ) ;
#142 = AXIS2_PLACEMENT_3D ( 'NONE', #41, #221, #14 ) ;
#143 = DIRECTION ( 'NONE',  ( -1.000000000000000000, -0.000000000000000000, -0.000000000000000000 ) ) ;
#144 = ORIENTED_EDGE ( 'NONE', *, *, #43, .F. ) ;
#145 = FACE_OUTER_BOUND ( 'NONE', #175, .T. ) ;
#146 = EDGE_CURVE ( 'NONE', #155, #135, #115, .T. ) ;
#147 = DIRECTION ( 'NONE',  ( -1.000000000000000000, -0.000000000000000000, -0.000000000000000000 ) ) ;
#148 = ORIENTED_EDGE ( 'NONE', *, *, #158, .F. ) ;
#149 = ORIENTED_EDGE ( 'NONE', *, *, #53, .F. ) ;
#150 = APPROVAL ( #314, 'UNSPECIFIED' ) ;
#151 = CC_DESIGN_PERSON_AND_ORGANIZATION_ASSIGNMENT ( #30, #319, ( #246 ) ) ;
#152 = CARTESIAN_POINT ( 'NONE',  ( 3.000000000000000000, 0.000000000000000000, 0.000000000000000000 ) ) ;
#153 = APPROVAL_DATE_TIME ( #9, #249 ) ;
#154 =( LENGTH_UNIT ( ) NAMED_UNIT ( * ) SI_UNIT ( .MILLI., .METRE. ) );
#155 = VERTEX_POINT ( 'NONE', #272 ) ;
#156 = ADVANCED_FACE ( 'NONE', ( #123 ), #40, .F. ) ;
#157 = PERSON_AND_ORGANIZATION ( #34, #233 ) ;
#158 = EDGE_CURVE ( 'NONE', #58, #96, #19, .T. ) ;
#159 = DATE_AND_TIME ( #56, #118 ) ;
#160 = ORIENTED_EDGE ( 'NONE', *, *, #218, .T. ) ;
#161 = AXIS2_PLACEMENT_3D ( 'NONE', #116, #141, #238 ) ;
#162 = FACE_BOUND ( 'NONE', #176, .T. ) ;
#163 = LOCAL_TIME ( 17, 12, 45.00000000000000000, #211 ) ;
#164 = CARTESIAN_POINT ( 'NONE',  ( -1.614212418857619014, 0.000000000000000000, 0.000000000000000000 ) ) ;
#165 = DIRECTION ( 'NONE',  ( 0.000000000000000000, 0.000000000000000000, 1.000000000000000000 ) ) ;
#166 = AXIS2_PLACEMENT_3D ( 'NONE', #293, #35, #62 ) ;
#167 = DIRECTION ( 'NONE',  ( 0.000000000000000000, 0.000000000000000000, -1.000000000000000000 ) ) ;
#168 = ORIENTED_EDGE ( 'NONE', *, *, #208, .F. ) ;
#169 = DIRECTION ( 'NONE',  ( 0.000000000000000000, 0.000000000000000000, 1.000000000000000000 ) ) ;
#170 = DIRECTION ( 'NONE',  ( -1.000000000000000000, -0.000000000000000000, -0.000000000000000000 ) ) ;
#171 = VERTEX_POINT ( 'NONE', #241 ) ;
#172 = CC_DESIGN_APPROVAL ( #150, ( #246 ) ) ;
#173 = CC_DESIGN_PERSON_AND_ORGANIZATION_ASSIGNMENT ( #288, #203, ( #292 ) ) ;
#174 = ADVANCED_BREP_SHAPE_REPRESENTATION ( 'Q-OZHWP-R2-10-894-M', ( #83, #49 ), #189 ) ;
#175 = EDGE_LOOP ( 'NONE', ( #304, #254 ) ) ;
#176 = EDGE_LOOP ( 'NONE', ( #335, #201 ) ) ;
#177 = LOCAL_TIME ( 17, 12, 45.00000000000000000, #226 ) ;
#178 = ORIENTED_EDGE ( 'NONE', *, *, #54, .T. ) ;
#179 = CARTESIAN_POINT ( 'NONE',  ( 1.250000000000000444, 0.000000000000000000, 0.000000000000000000 ) ) ;
#180 = VERTEX_POINT ( 'NONE', #15 ) ;
#181 = ORIENTED_EDGE ( 'NONE', *, *, #32, .T. ) ;
#182 = VECTOR ( 'NONE', #147, 1000.000000000000000 ) ;
#183 = DATE_TIME_ROLE ( 'creation_date' ) ;
#184 = PLANE ( 'NONE',  #27 ) ;
#185 = PERSON_AND_ORGANIZATION ( #34, #233 ) ;
#186 = CARTESIAN_POINT ( 'NONE',  ( -1.614212418857619014, 6.123233995736767268E-16, -5.000000000000000888 ) ) ;
#187 = AXIS2_PLACEMENT_3D ( 'NONE', #63, #300, #219 ) ;
#188 = DIRECTION ( 'NONE',  ( -1.000000000000000000, -0.000000000000000000, -0.000000000000000000 ) ) ;
#189 =( GEOMETRIC_REPRESENTATION_CONTEXT ( 3 ) GLOBAL_UNCERTAINTY_ASSIGNED_CONTEXT ( ( #94 ) ) GLOBAL_UNIT_ASSIGNED_CONTEXT ( ( #154, #20, #253 ) ) REPRESENTATION_CONTEXT ( 'NONE', 'WORKASPACE' ) );
#190 = DIRECTION ( 'NONE',  ( 0.000000000000000000, 0.000000000000000000, -1.000000000000000000 ) ) ;
#191 = CARTESIAN_POINT ( 'NONE',  ( 3.000000000000000000, 0.000000000000000000, 0.000000000000000000 ) ) ;
#192 = ADVANCED_FACE ( 'NONE', ( #194, #145 ), #329, .F. ) ;
#193 = CLOSED_SHELL ( 'NONE', ( #290, #107, #156, #25, #77, #65, #192, #46, #29, #333 ) ) ;
#194 = FACE_BOUND ( 'NONE', #28, .T. ) ;
#195 = EDGE_LOOP ( 'NONE', ( #48, #248 ) ) ;
#196 = CARTESIAN_POINT ( 'NONE',  ( -1.250000000000000222, 5.000000000000000000, 0.000000000000000000 ) ) ;
#197 = ORIENTED_EDGE ( 'NONE', *, *, #312, .F. ) ;
#198 = AXIS2_PLACEMENT_3D ( 'NONE', #268, #11, #111 ) ;
#199 = APPROVAL_DATE_TIME ( #78, #301 ) ;
#200 = DIRECTION ( 'NONE',  ( 0.000000000000000000, 0.000000000000000000, 1.000000000000000000 ) ) ;
#201 = ORIENTED_EDGE ( 'NONE', *, *, #22, .T. ) ;
#202 = VECTOR ( 'NONE', #50, 1000.000000000000000 ) ;
#203 = PERSON_AND_ORGANIZATION_ROLE ( 'design_supplier' ) ;
#204 = VERTEX_POINT ( 'NONE', #244 ) ;
#205 = APPROVAL_PERSON_ORGANIZATION ( #206, #150, #75 ) ;
#206 = PERSON_AND_ORGANIZATION ( #34, #233 ) ;
#207 = ORIENTED_EDGE ( 'NONE', *, *, #255, .F. ) ;
#208 = EDGE_CURVE ( 'NONE', #155, #204, #298, .T. ) ;
#209 = CARTESIAN_POINT ( 'NONE',  ( -1.250000000000000222, 0.000000000000000000, 0.000000000000000000 ) ) ;
#210 = CIRCLE ( 'NONE', #101, 5.000000000000000000 ) ;
#211 = COORDINATED_UNIVERSAL_TIME_OFFSET ( 8, 0, .AHEAD. ) ;
#212 = CYLINDRICAL_SURFACE ( 'NONE', #296, 5.000000000000000888 ) ;
#213 = CYLINDRICAL_SURFACE ( 'NONE', #258, 12.69999999999999929 ) ;
#214 = CARTESIAN_POINT ( 'NONE',  ( -1.250000000000000222, 6.123233995736767268E-16, -5.000000000000000888 ) ) ;
#215 = FACE_OUTER_BOUND ( 'NONE', #195, .T. ) ;
#216 = APPLICATION_CONTEXT ( 'configuration controlled 3d designs of mechanical parts and assemblies' ) ;
#217 = DIRECTION ( 'NONE',  ( -1.000000000000000000, -0.000000000000000000, -0.000000000000000000 ) ) ;
#218 = EDGE_CURVE ( 'NONE', #130, #171, #126, .T. ) ;
#219 = DIRECTION ( 'NONE',  ( 0.000000000000000000, 0.000000000000000000, 1.000000000000000000 ) ) ;
#220 = ORIENTED_EDGE ( 'NONE', *, *, #275, .T. ) ;
#221 = DIRECTION ( 'NONE',  ( -1.000000000000000000, -0.000000000000000000, -0.000000000000000000 ) ) ;
#222 = AXIS2_PLACEMENT_3D ( 'NONE', #324, #121, #169 ) ;
#223 = LINE ( 'NONE', #106, #202 ) ;
#224 = ORIENTED_EDGE ( 'NONE', *, *, #74, .F. ) ;
#225 = DIRECTION ( 'NONE',  ( 1.000000000000000000, 0.000000000000000000, 0.000000000000000000 ) ) ;
#226 = COORDINATED_UNIVERSAL_TIME_OFFSET ( 8, 0, .AHEAD. ) ;
#227 = DIRECTION ( 'NONE',  ( -1.000000000000000000, -0.000000000000000000, -0.000000000000000000 ) ) ;
#228 = ORIENTED_EDGE ( 'NONE', *, *, #251, .F. ) ;
#229 = LOCAL_TIME ( 17, 12, 45.00000000000000000, #72 ) ;
#230 = CALENDAR_DATE ( 2020, 22, 12 ) ;
#231 = CC_DESIGN_PERSON_AND_ORGANIZATION_ASSIGNMENT ( #1, #311, ( #292 ) ) ;
#232 = PLANE ( 'NONE',  #161 ) ;
#233 = ORGANIZATION ( 'UNSPECIFIED', 'UNSPECIFIED', '' ) ;
#234 = PRODUCT_DEFINITION_SHAPE ( 'NONE', 'NONE',  #327 ) ;
#235 = DESIGN_CONTEXT ( 'detailed design', #216, 'design' ) ;
#236 = CC_DESIGN_PERSON_AND_ORGANIZATION_ASSIGNMENT ( #185, #307, ( #327 ) ) ;
#237 = AXIS2_PLACEMENT_3D ( 'NONE', #136, #287, #37 ) ;
#238 = DIRECTION ( 'NONE',  ( -0.000000000000000000, 0.000000000000000000, 1.000000000000000000 ) ) ;
#239 = CIRCLE ( 'NONE', #245, 5.000000000000000000 ) ;
#240 = EDGE_CURVE ( 'NONE', #315, #281, #239, .T. ) ;
#241 = CARTESIAN_POINT ( 'NONE',  ( 1.250000000000000444, 0.000000000000000000, 5.000000000000000000 ) ) ;
#242 = CARTESIAN_POINT ( 'NONE',  ( 3.000000000000000000, 0.000000000000000000, 12.69999999999999929 ) ) ;
#243 = ORIENTED_EDGE ( 'NONE', *, *, #53, .T. ) ;
#244 = CARTESIAN_POINT ( 'NONE',  ( -3.000000000000000000, 1.555301434917138433E-15, -12.69999999999999929 ) ) ;
#245 = AXIS2_PLACEMENT_3D ( 'NONE', #247, #217, #295 ) ;
#246 = SECURITY_CLASSIFICATION ( '', '', #110 ) ;
#247 = CARTESIAN_POINT ( 'NONE',  ( -3.000000000000000000, 0.000000000000000000, 0.000000000000000000 ) ) ;
#248 = ORIENTED_EDGE ( 'NONE', *, *, #146, .F. ) ;
#249 = APPROVAL ( #256, 'UNSPECIFIED' ) ;
#250 = DIRECTION ( 'NONE',  ( 0.000000000000000000, 0.000000000000000000, -1.000000000000000000 ) ) ;
#251 = EDGE_CURVE ( 'NONE', #204, #180, #39, .T. ) ;
#252 = APPLICATION_CONTEXT ( 'configuration controlled 3d designs of mechanical parts and assemblies' ) ;
#253 =( NAMED_UNIT ( * ) SI_UNIT ( $, .STERADIAN. ) SOLID_ANGLE_UNIT ( ) );
#254 = ORIENTED_EDGE ( 'NONE', *, *, #251, .T. ) ;
#255 = EDGE_CURVE ( 'NONE', #286, #130, #90, .T. ) ;
#256 = APPROVAL_STATUS ( 'not_yet_approved' ) ;
#257 = EDGE_LOOP ( 'NONE', ( #127, #181, #21, #306 ) ) ;
#258 = AXIS2_PLACEMENT_3D ( 'NONE', #85, #140, #265 ) ;
#259 = PERSON_AND_ORGANIZATION ( #34, #233 ) ;
#260 = CARTESIAN_POINT ( 'NONE',  ( -3.000000000000000000, 0.000000000000000000, 5.000000000000000000 ) ) ;
#261 = ORIENTED_EDGE ( 'NONE', *, *, #240, .F. ) ;
#262 = AXIS2_PLACEMENT_3D ( 'NONE', #64, #44, #167 ) ;
#263 = LOCAL_TIME ( 17, 12, 45.00000000000000000, #133 ) ;
#264 = MECHANICAL_CONTEXT ( 'NONE', #252, 'mechanical' ) ;
#265 = DIRECTION ( 'NONE',  ( 0.000000000000000000, 0.000000000000000000, 1.000000000000000000 ) ) ;
#266 = APPROVAL_ROLE ( '' ) ;
#267 = EDGE_CURVE ( 'NONE', #171, #130, #210, .T. ) ;
#268 = CARTESIAN_POINT ( 'NONE',  ( 3.000000000000000000, 0.000000000000000000, 0.000000000000000000 ) ) ;
#269 = CARTESIAN_POINT ( 'NONE',  ( 3.000000000000000000, 12.69999999999999929, 0.000000000000000000 ) ) ;
#270 = DIRECTION ( 'NONE',  ( 0.000000000000000000, 0.000000000000000000, 1.000000000000000000 ) ) ;
#271 = DIRECTION ( 'NONE',  ( -1.000000000000000000, -0.000000000000000000, -0.000000000000000000 ) ) ;
#272 = CARTESIAN_POINT ( 'NONE',  ( 3.000000000000000000, 1.555301434917138433E-15, -12.69999999999999929 ) ) ;
#273 = AXIS2_PLACEMENT_3D ( 'NONE', #196, #225, #250 ) ;
#274 = LINE ( 'NONE', #67, #69 ) ;
#275 = EDGE_CURVE ( 'NONE', #24, #171, #223, .T. ) ;
#276 = CARTESIAN_POINT ( 'NONE',  ( 3.000000000000000000, 6.123233995736768255E-16, -5.000000000000001776 ) ) ;
#277 = ORIENTED_EDGE ( 'NONE', *, *, #22, .F. ) ;
#278 = CIRCLE ( 'NONE', #285, 5.000000000000000000 ) ;
#279 = CYLINDRICAL_SURFACE ( 'NONE', #330, 12.69999999999999929 ) ;
#280 = EDGE_LOOP ( 'NONE', ( #277, #98, #160, #55 ) ) ;
#281 = VERTEX_POINT ( 'NONE', #125 ) ;
#282 = DATE_AND_TIME ( #128, #163 ) ;
#283 = ORIENTED_EDGE ( 'NONE', *, *, #267, .F. ) ;
#284 = COORDINATED_UNIVERSAL_TIME_OFFSET ( 8, 0, .AHEAD. ) ;
#285 = AXIS2_PLACEMENT_3D ( 'NONE', #134, #95, #47 ) ;
#286 = VERTEX_POINT ( 'NONE', #276 ) ;
#287 = DIRECTION ( 'NONE',  ( -1.000000000000000000, -0.000000000000000000, -0.000000000000000000 ) ) ;
#288 = PERSON_AND_ORGANIZATION ( #34, #233 ) ;
#289 = DIRECTION ( 'NONE',  ( -1.000000000000000000, -0.000000000000000000, -0.000000000000000000 ) ) ;
#290 = ADVANCED_FACE ( 'NONE', ( #3 ), #279, .T. ) ;
#291 = FACE_OUTER_BOUND ( 'NONE', #71, .T. ) ;
#292 = PRODUCT_DEFINITION_FORMATION_WITH_SPECIFIED_SOURCE ( 'ANY', '', #10, .NOT_KNOWN. ) ;
#293 = CARTESIAN_POINT ( 'NONE',  ( -3.000000000000000000, 0.000000000000000000, 0.000000000000000000 ) ) ;
#294 = CC_DESIGN_DATE_AND_TIME_ASSIGNMENT ( #282, #183, ( #327 ) ) ;
#295 = DIRECTION ( 'NONE',  ( 0.000000000000000000, 0.000000000000000000, 1.000000000000000000 ) ) ;
#296 = AXIS2_PLACEMENT_3D ( 'NONE', #79, #289, #59 ) ;
#297 = DIRECTION ( 'NONE',  ( -1.000000000000000000, -0.000000000000000000, -0.000000000000000000 ) ) ;
#298 = LINE ( 'NONE', #117, #182 ) ;
#299 = CIRCLE ( 'NONE', #198, 12.69999999999999929 ) ;
#300 = DIRECTION ( 'NONE',  ( -1.000000000000000000, -0.000000000000000000, -0.000000000000000000 ) ) ;
#301 = APPROVAL ( #332, 'UNSPECIFIED' ) ;
#302 = CARTESIAN_POINT ( 'NONE',  ( -1.614212418857619014, 0.000000000000000000, 0.000000000000000000 ) ) ;
#303 = CC_DESIGN_SECURITY_CLASSIFICATION ( #246, ( #292 ) ) ;
#304 = ORIENTED_EDGE ( 'NONE', *, *, #43, .T. ) ;
#305 = APPLICATION_PROTOCOL_DEFINITION ( 'international standard', 'config_control_design', 1994, #252 ) ;
#306 = ORIENTED_EDGE ( 'NONE', *, *, #122, .F. ) ;
#307 = PERSON_AND_ORGANIZATION_ROLE ( 'creator' ) ;
#308 = CC_DESIGN_DATE_AND_TIME_ASSIGNMENT ( #5, #105, ( #246 ) ) ;
#309 = CARTESIAN_POINT ( 'NONE',  ( -1.614212418857619014, 0.000000000000000000, 0.000000000000000000 ) ) ;
#310 = EDGE_LOOP ( 'NONE', ( #148, #149 ) ) ;
#311 = PERSON_AND_ORGANIZATION_ROLE ( 'creator' ) ;
#312 = EDGE_CURVE ( 'NONE', #281, #315, #278, .T. ) ;
#313 = DIRECTION ( 'NONE',  ( -1.000000000000000000, -0.000000000000000000, -0.000000000000000000 ) ) ;
#314 = APPROVAL_STATUS ( 'not_yet_approved' ) ;
#315 = VERTEX_POINT ( 'NONE', #260 ) ;
#316 = APPROVAL_ROLE ( '' ) ;
#317 = DIRECTION ( 'NONE',  ( 1.000000000000000000, 0.000000000000000000, 0.000000000000000000 ) ) ;
#318 = DIRECTION ( 'NONE',  ( -0.000000000000000000, 0.000000000000000000, 1.000000000000000000 ) ) ;
#319 = PERSON_AND_ORGANIZATION_ROLE ( 'classification_officer' ) ;
#320 = LINE ( 'NONE', #186, #76 ) ;
#321 = CC_DESIGN_PERSON_AND_ORGANIZATION_ASSIGNMENT ( #52, #131, ( #10 ) ) ;
#322 = DIRECTION ( 'NONE',  ( 1.000000000000000000, 0.000000000000000000, 0.000000000000000000 ) ) ;
#323 = DIRECTION ( 'NONE',  ( -1.000000000000000000, 0.000000000000000000, -0.000000000000000000 ) ) ;
#324 = CARTESIAN_POINT ( 'NONE',  ( 1.250000000000000444, 0.000000000000000000, 0.000000000000000000 ) ) ;
#325 = FACE_OUTER_BOUND ( 'NONE', #257, .T. ) ;
#326 = APPROVAL_PERSON_ORGANIZATION ( #259, #301, #266 ) ;
#327 = PRODUCT_DEFINITION ( 'UNKNOWN', '', #292, #235 ) ;
#328 = ORIENTED_EDGE ( 'NONE', *, *, #80, .F. ) ;
#329 = PLANE ( 'NONE',  #57 ) ;
#330 = AXIS2_PLACEMENT_3D ( 'NONE', #309, #103, #129 ) ;
#331 = ORIENTED_EDGE ( 'NONE', *, *, #122, .T. ) ;
#332 = APPROVAL_STATUS ( 'not_yet_approved' ) ;
#333 = ADVANCED_FACE ( 'NONE', ( #70 ), #23, .F. ) ;
#334 = VECTOR ( 'NONE', #113, 1000.000000000000000 ) ;
#335 = ORIENTED_EDGE ( 'NONE', *, *, #74, .T. ) ;
ENDSEC;
END-ISO-10303-21;
